Finger Picking Silent Night Guitar Tab

Sponsored Links




This is the finger picking Silent Night guitar tab page. I also have an easy version tabbed out here: Easy Silent Night Tab. There are some more finger picking guitar tab videos such as the Super Mario Bros Tab or Fur Elise Tab in the Guitar Tabs area. You can download the mp3 used to make the guitar tab video above and other mp3's in the Mp3's Section.

fur elise guitar tab

INTRO
E------------------------------------------------------
B--------3--------------------------3------------------
G------3---3-------3-5-3----------3---3-------3-5-3----
D----3-------3---5-------5------3-------3---5-------5--
A--5-----------6--------------5-----------6------------
E--6--------------------------6------------------------


PART 1
E----------3-------------------------------3---------------------
B----6-----3-6-------3-----3---------6-----3-6-------3-----3-----
G--------3---3-----------3---3-----------3---3-----------3---3---
D------3-------3-------3-------3-------3-------3-------3-------3-
A---5---------------5---------------5---------------5------------
E--6---------------6---------------6---------------6-------------

 

PART 2
E----8--------8-------------------6-------6--------------------
B-----------------10--------------------3---------6-----3------
G-------------------------------------3---3-----------3---3----
D--------7-10-7-------7-10--3-------3-------3-------3-------3--
A---6--8--------8---8------------5---------------5-------------
E--8--------------8-------------6---------------6--------------

PART 3 (play twice)
E--3-------3---6-----5-3-----------3--------------------
B--------4-----------4-------6-----3-6-----3-----3------
G------3---3-------3---3---------3---3---------3---3----
D----5-------5---5-------5-----3-------3-----3-------3--
A--6-----------6------------5-------------5-------------
E--------------------------6-------------6--------------


PART 4
E---8--------8---11-----8---------------------------10-------------------
B---------------------------10----11-------------------------------------
G------------------------------------------------------------------------
D-------7-10-7--------7-10-----10-12----------------12----------------12-
A--6--8--------8-6--9-------0--------13-10----10-13----13-10----10-13----
E-8-------------------------------10-------10----------------12----------


PART 5
E--6-----------------------------------------
B------6-----6-4----3-----------3---3---6-3--
G--------7-------5--3-3-------3-------3------
D-----------------------3---3-----3----------
A------------3------------5------------------
E--6----------------6------------------------

 

PART 1 (2nd Time)
E----------3-------------------------------3---------------------
B----6-----3-6-------3-----3---------6-----3-6-------3-----3-----
G--------3---3-----------3---3-----------3---3-----------3---3---
D------3-------3-------3-------3-------3-------3-------3-------3-
A---5---------------5---------------5---------------5------------
E--6---------------6---------------6---------------6-------------

PART 2 (2nd Time)
E----8--------8-------------------6-------6--------------------
B-----------------10--------------------3---------6-----3------
G-------------------------------------3---3-----------3---3----
D--------7-10-7-------7-10--3-------3-------3-------3-------3--
A---6--8--------8---8------------5---------------5-------------
E--8--------------8-------------6---------------6--------------

PART 3 - 2nd Time (play twice)
E--3-------3---6-----5-3-----------3--------------------
B--------4-----------4-------6-----3-6-----3-----3------
G------3---3-------3---3---------3---3---------3---3----
D----5-------5---5-------5-----3-------3-----3-------3--
A--6-----------6------------5-------------5-------------
E--------------------------6-------------6--------------


PART 4 (2nd Time)
E---8--------8---11-----8---------------------------10-------------------
B---------------------------10----11-------------------------------------
G------------------------------------------------------------------------
D-------7-10-7--------7-10-----10-12----------------12----------------12-
A--6--8--------8-6--9-------0--------13-10----10-13----13-10----10-13----
E-8-------------------------------10-------10----------------12----------

 

OUTRO
E--6-------------------
B------6-----6-4-------
G--------7-------5--3--
D----------------------
A------------3------1--
E--6-------------------


And there you have the difficult version of Silent Night. The sheet music is in the public domain so I didn't have to figure this one out. If you want another cool finger picking song try the Super Mario Bros tab. Also I have tabbed out a finger picking version of Fur Elise. You can see all the guitar tabs available in the Tab Videos section. Feel free to link to my site. :)